Song name
# A B C D E F G H I J K L M N O P Q R S T U V W X Y Z

Misc Unsigned Bands - Scars On Society - Stones In A Glass Apartment tab

They ROCK!
Tabbed By Kevin Konopi


|---------------------------------|
|---------------------------------|
|---------------------------------|
|---------9-9-9-9-5-5-5-5-8-8-8-8-|    x8
|-7-7-7-7-7-7-7-7-3-3-3-3-6-6-6-6-|
|-5-5-5-5-------------------------|

Break with cow bell.

|---------------------------------|
|---------------------------------|
|---------------------------------|
|---------9-9-9-9-5-5-5-5-8-8-8-8-|    x12
|-7-7-7-7-7-7-7-7-3-3-3-3-6-6-6-6-|
|-5-5-5-5-------------------------|


Check them out at purevolume.com

I also am tabbing the following songs

Unnamed (actual name)

Punks United
Tap to rate this tab
# A B C D E F G H I J K L M N O P Q R S T U V W X Y Z