Song name
# A B C D E F G H I J K L M N O P Q R S T U V W X Y Z

Misc Unsigned Bands - Fuhgawz - Capiche Acoustic tab

-----------------------------------------------------------------------------
			 Capiche Acoustic - Fuhgawz
-----------------------------------------------------------------------------

Tabbed by: Ignacio "Coco" Vespoli
Email: cocofuhgawz@hotmail.com

Tuning: Normal

INTRO, VERSE AND OUTRO
e|--0--|--0--|--3--|--2--|
B|--1--|--2--|--3--|--3--|
G|--0--|--2--|--0--|--4--|
D|--2--|--2--|--0--|--4--|
A|--3--|--0--|--2--|--2--|
E|-----|-----|--3--|-----|


CHORUS
e|--2--|--3--|--0--|--0--|
B|--3--|--3--|--1--|--1--|
G|--2--|--0--|--2--|--0--|
D|--0--|--0--|--3--|--2--|
A|-----|--2--|-----|--3--|
E|-----|--3--|-----|-----|

Comments? Okay, send me an e-mail
Tap to rate this tab
# A B C D E F G H I J K L M N O P Q R S T U V W X Y Z