Song name
# A B C D E F G H I J K L M N O P Q R S T U V W X Y Z

Misc Unsigned Bands - Small Alliance - Maybe tab

Help us improve GuitareTab! Take a short survey!
 A brand new band-Jeff Richardson, Eddie Glamire, and Joel Clamtin

e|-------------------------------|
B|-------------------------------|
G|-------------------------------|
D|-------------------------------|
A|-------------------------------|
E|--0-0-3\2-----0-0-3\2/3--------|

e|-------------------------------|
B|-------------------------------|
G|-------------------------------|
D|-------------------------------|
A|------------------3-2----------|
E|--0-0-3\2-0-0-3\2--------------|

e|-------------------------------|
B|-------------------------------|
G|-------------------------------|
D|-------------------------------|
A|-------------------------------|
E|--0-0-3\2-----0-0-3\2/3--------|

e|-------------------------------|
B|-------------------------------|
G|-------------------------------|
D|-------------------------------|
A|------------------3-2----------|
E|--0-0-3\2-0-0-3\2--------------|
Related for Small Alliance - Maybe tab