Song name
# A B C D E F G H I J K L M N O P Q R S T U V W X Y Z

Misc Unsigned Bands - 48 May - Home By 2 tab

band: 48 may
song: home by 2

hey this is probably wrong but here it is anyway..........

*note*, You'll have to know the timing of the song to be able to play it

rhythm:

e:----------------------------------------|
B:----------------------------------------|
G:----------------------------------------|  (goes on for the whole intro)
D:--99-9999-99-9999--99-9999-99-9999------|
A:--xx-xxxx-xx-xxxx--xx-xxxx-xx-xxxx------|
E:--77-7777-77-7777--77-7777-77-7777------|

lead:

e:--11---------------9--------------------|
B:-(0)--------------(0)-------------------|
G:----------------------------------------|
D:----------------------------------------|
A:----------------------------------------|
E:----------------------------------------|

then: (lead)

e:--11--------9--------11--------9--------|
B:----12--12---12--12----12--12---12--12--|
G:------11-------11--------11-------11----|  x2
D:----------------------------------------|
A:----------------------------------------|
E:----------------------------------------|

Rhythm:
e:----------------------------------------|
B:----------------------------------------|
G:----------------------------------------|
D:-99-9999-99-9---------------------------|
A:-xx-xxxx-xx-x---------------------------|
E:-77-7777-77-7---------------------------|


thats it, i hope i didn't waste your time..
Tap to rate this tab
# A B C D E F G H I J K L M N O P Q R S T U V W X Y Z