Song name
# A B C D E F G H I J K L M N O P Q R S T U V W X Y Z

Misc Unsigned Bands - El Profe De Guitarra - Untitled 1 tab

-----------------------------------------------------------------------------
		    UNTITLED 1 - El Profe De Guitarra
-----------------------------------------------------------------------------

Tabbed by: Ignacio "Coco" Vespoli
e-mail: cocofuhgawz@hotmail.com


e|----------------3-1-0--1-----3-1-0--1--------|
B|----0-1----0-1-----------3------------3------|
G|--2------2-----------------2------------2----|
D|----------------0------0-----0------0--------|
A|--0------0-----------------------------------|
E|---------------------------------------------|


e|------------------------------------------------------|
B|-6-5-3-5------6-5-3-5------5-3-1--3------5-3-1-3------|
G|---------5------------5---------------1------------1--|
D|-----------5------------5-----------2------------2----|
A|-0-----0------0-----0---------------------------------|
E|---------------------------0------0------0-----0------|


e|----------------------------3-1-0--1-----3-1-0--5-3-1--|
B|-----------------0-1---0-1-----------3-----------------|
G|-2---2--2---2--2-----2-----------------2---------------|
D|---2------2-----------------0------0-----0------0------|
A|-0------0------0-----0---------------------------------|
E|-------------------------------------------------------|


e|---------------------------------------------------------------0----5-|
B|-6-5-3-5------6-5-3--8-6-5--5-3-1--3-----5-3-1--3------------1-----5--|
G|---------5-----------------------------1------------1--2---2------5---|
D|-----------5-------------------------2------------2------2------------|
A|-0-----0------0------0---------------------------------0--------------|
E|----------------------------0------0-----0------0----------------0----|    


===========================================================================
Comments? Send me an e-mail!!!
Tap to rate this tab
 
# A B C D E F G H I J K L M N O P Q R S T U V W X Y Z