Song name
# A B C D E F G H I J K L M N O P Q R S T U V W X Y Z

Misc Unsigned Bands - Anatomy - Untitled tab

This is a song my band and i have been working on.
Its pretty easy but fun to play. Its in standard tuning.

Verse 1&2
guitar 1
--------------------------------------------------------------------|
--------------------------------------------------------------------|
--------------------------------------------------------------------|
------9--------4---------6-----------1-1-----2----------------------|
---7-----0--2----0---4-----0-~~~~~----------------------------------|
--------------------------------------------------------------------|

guitar 2
----------------------------------------------------------------------|
----------------------------------------------------------------------|
----------------------------------------------------------------------|
---9-x------4-x-----6-x------2-x-x-x----------------------------------|
---7-x--0---2-x--0--4-x--0---0-x-x-x----------------------------------|
----------------------------------------------------------------------|

chorus
-----------------------------------------------------------------------|
-----------------------------------------------------------------------|
-----------------------------------------------------------------------|
-----------------------------------------------------------------------|
-14-14-x-x-x-x-14-14-14-9-9x-x-x-x-11-11-x-x-x-x-11-11-7-7x-x-x-x-7-9--|
-12-12-x-x-x-x-12-12-12-7-7x-x-x-x-9--9--x-x-x-x-9--9--5-5x-x-x-x-5-7--|
Tap to rate this tab
# A B C D E F G H I J K L M N O P Q R S T U V W X Y Z