Song name
# A B C D E F G H I J K L M N O P Q R S T U V W X Y Z

Misc Unsigned Bands - Modok - Smiling Faces In A Wonderful Pool Of Dangerous Guilt tab

This band is a brand new band, communtity band from Baltimore Maryland.

Smiling faces in a wonderful pool of dangerous guilt

MODOK

written by jack


1--------------------|
2--------------------|
3----2----3---2----3-|
4---2----3---2----3--|
5--2----3---2----3---|
6-2--------2---------|

1---------------------|
2---------------------|
3----2----3---2----3--|
4---2----3---2----3---|
5--2----3---2----3----|
6-2--------2--------2-|

1---------------------|
2---------------------|
3----2----3---2----3--|
4---2----3---2----3---|
5--2----3---2----3----|
6-2--------2--------2-|

1---------------------|
2---------------------|
3----2----3---2----3--|
4---2----3---2----3---|
5--2----3---2----3----|
6-2--------2--------2-|


its a dangerous place here
here in my head
a dangerous place in deed

one could get lost here here
in my head
lost in my head indeed
Tap to rate this tab
 
# A B C D E F G H I J K L M N O P Q R S T U V W X Y Z