Guitaretab - guitar tabs
Song name
# A B C D E F G H I J K L M N O P Q R S T U V W X Y Z

Misc Unsigned Bands - Modok - Geek Life tab

Modok is a new band, community band of baltimore maryland


1-------------------------------------------------------------------------|
2-------------------------------------------------------------------------|
3-------------------------------------------------------------------------|
4-------------------------------------------------------------------------|
5-7-7-7-7-7-7-7-106-7-7-7-7-7-7-7-4-3-7-7-7-7-7-7-7-106-7-7-7-7-7-7-7-4-1-|
6-5-5-5-5-5-5-5-8-4-5-5-5-5-5-5-5-2-1-5-5-5-5-5-5-5-8-4-5-5-5-5-5-5-5-2-3-|
[ Tab from: http://www.guitaretab.com/m/misc-unsigned-bands/57818.html ]
1---------------------------------|
2---------------------------------|
3---------------------------------|
4---------------------------------|
5-7-7-x-x-5-5-x-x-8-8-x-x-6-6-6-6-|
6-5-5-x-x-3-3-x-x-6-6-x-x-4-4-4-4-|

1-------------------------------------------------------------------------|
2-------------------------------------------------------------------------|
3-------------------------------------------------------------------------|
4-------------------------------------------------------------------------|
5-7-7-7-7-7-7-7-106-7-7-7-7-7-7-7-4-3-7-7-7-7-7-7-7-106-7-7-7-7-7-7-7-4-1-|
6-5-5-5-5-5-5-5-8-4-5-5-5-5-5-5-5-2-1-5-5-5-5-5-5-5-8-4-5-5-5-5-5-5-5-2-3-|

1---------------------------------|
2---------------------------------|
3---------------------------------|
4---------------------------------|
5-7-7-x-x-5-5-x-x-8-8-x-x-6-6-6-6-|
6-5-5-x-x-3-3-x-x-6-6-x-x-4-4-4-4-|
Related for Modok - Geek Life tab
Advertisement will be closed in 10 seconds