Song name
# A B C D E F G H I J K L M N O P Q R S T U V W X Y Z

Misc Unsigned Bands - Modok - Imaginary Friends tab

MODOK
written by JACK


1-----------------------------------------|
2-----------------------------------------|
3-----------------------------------------|
4-----------------------------------------|
5-8-8-6-6-8-8-6-6-8-8-6-6-8-8-6-6-8-8-6-6-|  verse
6-6-6-4-4-6-6-4-4-6-6-4-4-6-6-4-4-6-6-4-4-|


1--------------------------------------|
2--------------------------------------|
3--------------------------------------|
4--------------------------------------|
5-8-8-4-4-10106-6-8-8-4-4-10---8-8-8-8-|   chorus
6-6-6-2-2-8-8-4-4-6-6-2-2-8----6-6-6-6-|

1-----------------------------------------|
2-----------------------------------------|
3-----------------------------------------|
4-----------------------------------------|
5-8-8-6-6-8-8-6-6-8-8-6-6-8-8-6-6-8-8-6-6-|
6-6-6-4-4-6-6-4-4-6-6-4-4-6-6-4-4-6-6-4-4-|   verse

1--------------------------------------|
2--------------------------------------|
3--------------------------------------|
4--------------------------------------|
5-8-8-4-4-10106-6-8-8-4-4-10---8-8-8-8-|   chorus
6-6-6-2-2-8-8-4-4-6-6-2-2-8----6-6-6-6-|


repete this a couple of times
Tap to rate this tab
 
# A B C D E F G H I J K L M N O P Q R S T U V W X Y Z