Song name
# A B C D E F G H I J K L M N O P Q R S T U V W X Y Z

Misc Unsigned Bands - Modok - Poker In The Dark tab

MODOK

WRITTEN BY JACK


1-----------------------------------------------------------|
2-----------------------------------------------------------|
3-----------------------------------------------------------|
4-----------------------------------------------------------|
5-4-----------4-4-3-----------3-3-4-----------4-4-3---------|
6-2-(ring)----2-2-1-(ring)----1-1-2-(ring)----2-2-1-(ring)--|

1-----------------------------------------------------------|
2-----------------------------------------------------------|
3-----------------------------------------------------------|
4-----------------------------------------------------------|
5-4-4-3-3-3-3-4-4-3-3-3-3-4-4-3-3-3-3-4-4-3-3-3-3-----------|
6-2-2-1-1-1-1-2-2-1-1-1-1-2-2-1-1-1-1-2-2-1-1-1-1-----------|

1-----------------------------------------------------------|
2-----------------------------------------------------------|
3-----------------------------------------------------------|
4-----------------------------------------------------------|
5-4-4-3-3-3-3-4-4-3-3-3-3-4-4-3-3-3-3-4-4-3-3-3-3-----------|
6-2-2-1-1-1-1-2-2-1-1-1-1-2-2-1-1-1-1-2-2-1-1-1-1-----------|

1-----------------------------------------------------------|
2-----------------------------------------------------------|
3-----------------------------------------------------------|
4-----------------------------------------------------------|
5-4-4-3-3-3-3-4-4-3-3-3-3-4-4-3-3-3-3-4-4-3-3-3-3-----------|
6-2-2-1-1-1-1-2-2-1-1-1-1-2-2-1-1-1-1-2-2-1-1-1-1-----------|

1-----------------------------------------------------------|
2-----------------------------------------------------------|
3-----------------------------------------------------------|
4-----------------------------------------------------------|
5-4-4-3-3-3-3-4-4-3-3-3-3-4-4-3-3-3-3-4-4-3-3-3-3-----------|
6-2-2-1-1-1-1-2-2-1-1-1-1-2-2-1-1-1-1-2-2-1-1-1-1-----------|

1------------------------------------------------------------------|
2------------------------------------------------------------------|
3------------------------------------------------------------------|
4------------------------------------------------------------------|
5-4-4-3-3-3-3-4-4-3-3-3-3-4-4-3-3-3-3-4-4-3-3-3-3-4----------------|
6-2-2-1-1-1-1-2-2-1-1-1-1-2-2-1-1-1-1-2-2-1-1-1-1-2-(ring)---------|
Tap to rate this tab
# A B C D E F G H I J K L M N O P Q R S T U V W X Y Z