Song name
# A B C D E F G H I J K L M N O P Q R S T U V W X Y Z

Misc Unsigned Bands - Stainless - Intro tab

---------------------------------------------------------------------------------
			     INTRO - STAINLESS
---------------------------------------------------------------------------------
Tabbed by: BISH
Email: so_bish4ya@yahoo.com
---------------------------------------------------------------------------------


e|--5-5-5---6-6-6---5-5-5--5-5-5-5-5-5-5-5---6-6-6-6-6-6-6-6---5-5-5-5-5-5-5-5--|
B|------------------------------------------------------------------------------|
G|------------------------------------------------------------------------------|
D|------------------------------------------------------------------------------|
A|------------------------------------------------------------------------------|
E|------------------------------------------------------------------------------|

e|--5-5-5---6-6-6---5-5-5--5-5-5-5-5-5-5-5---6-6-6-6-6-6-6-6---5-5-5-5-5-5-5-5--|
B|--3-3-3---4-4-4---3-3-3--3-3-3-3-3-3-3-3---4-4-4-4-4-4-4-4---3-3-3-3-3-3-3-3--|
G|------------------------------------------------------------------------------|
D|------------------------------------------------------------------------------|
A|------------------------------------------------------------------------------|
E|------------------------------------------------------------------------------|

e|--5-5-5---6-6-6---5---5-5-5---6-6-6---5---------------------------------------|
B|--3-3-3---4-4-4---3-----------------------------------------------------------|
G|------------------------------------------------------------------------------|
D|------------------------------------------------------------------------------|
A|------------------------------------------------------------------------------|
E|------------------------------------------------------------------------------|


---------------------------------------------------------------------------------

The bass for the song is done by holding a riff on A and struming the A and E 
chords following the same pattern as the guitar. Enjoy !!! :)

---------------------------------------------------------------------------------
| /  slide up
| \  slide down
| h  hammer-on
| p  pull-off
| ~  vibrato
| +  harmonic
| x  Mute note
=================================================================================
Tap to rate this tab
# A B C D E F G H I J K L M N O P Q R S T U V W X Y Z