Song name
# A B C D E F G H I J K L M N O P Q R S T U V W X Y Z

Misc Unsigned Bands - Modok - Ice Water tab

ice water

modok

written by jack

1-----------------------------------------------------------|
2-----------------------------------------------------------|
3-----------------------------------------------------------|
4-----------------------------------------------------------|
5-------------------2-2-2-2-2-1-1-1-1-1-3-3-3-3-3-2-2-2-2-2-|
6-0-0-0-0-0-0-0-0-0-0-0-0-0-0-0-0-0-0-0-0-0-0-0-0-0-0-0-0-0-|
(play this with an accustic guitar it sounds better)

1---------------------------------------|
2---------------------------------------|
3---------------------------------------|
4-3-3-------4-4-------5-5-------4-4-----|
5-1-1-1-1-1-2-2-2-2-2-3-3-3-3-3-2-2-2-2-|
6-0-0-0-0-0-0-0-0-0-0-0-0-0-0-0-0-0-0-0-|
(play this with eaither an accustic or get someone else to use some distortion action)
Tap to rate this tab
# A B C D E F G H I J K L M N O P Q R S T U V W X Y Z