Song name
# A B C D E F G H I J K L M N O P Q R S T U V W X Y Z

Misc Unsigned Bands - Regrets Of Romance - Love Is A Nightmare tab

Regrets Of Romance
   Love Is A Nightmare

 Drop C  ( C-G-C-F-A-D ) low to high

   Guitar one - Brendon Keye               H-hammer on
   Guitar two - Jon Duch                   P-pull off
                                          ( )-harmonic
                                           ~-let ring

D|-------------------22-20-22--------------------22-20-22--------|
A|-22-20-22-20h22p20-----------22-20-22-20h22p20-----------------|
F|---------------------------------------------------------------|Intro
C|---------------------------------------------------------------|
G|---------------------------------------------------------------|
C|---------------------------------------------------------------|


D|---------------------------------------------------------------|
A|---------------------------------------------------------------|
F|------------------------10-10-10-10-10-9-----------------------|Verse
C|-00-08-8-00-07-7-00-088-x--x--x--x--x--x--(5)------------------|
G|-00-08-8-00-07-7-00-088-8--8--8--8--8--7-----------------------|
C|-00-08-8-00-07-7-00-088----------------------------------------|

D|---------------------------------------------------------------|
A|---------------------------------------------------------------|
F|--------------------77777777-----------------------------------|Chorus
C|-333333333-55555555-77777777-55555555--------------------------|
G|-333333333-33333333-55555555-55555555--------------------------|
C|-333333333-22222222----------55555555--------------------------|


D|---------------------------------------------------------------|
A|---------------------------------------------------------------|
F|---------------------------------------------------------------|Outro
C|-00-0h5h8-88-877-788-3-2---------------------------------------|
G|-00-0h5h8-88-877-788-3-2---------------------------------------|
C|-00-0h5h8-88-877-788-3-2---------------------------------------|


D|------|
A|------|
F|------|End on
C|--0~--|
G|--0~--|
C|--0~--|



This is 100% cause I am the guitar player from Regrets Of Romance.
                
                                Brendon Keye ~~+*+Regrets Of Romance+*+~~
Tap to rate this tab
# A B C D E F G H I J K L M N O P Q R S T U V W X Y Z