Song name
# A B C D E F G H I J K L M N O P Q R S T U V W X Y Z

Misc Unsigned Bands - Symphonic Haze - Shades Of Sorrow tab

The other tab was good, but there were some mistakes in the main riff.

Here's the right way to play this song...

Drop-D 1/2 step down Tuning (low to high C# G# C# F# A# D#)

Main Riff
1---------------------------------------------------------------------|
2-----------3-------------------------------3-------------------------|
3-/10-10-10-2-------------------------------2-------------------------|
4-----------0-0-0-0-7-8-7-0-3-3-3-3-7-8-7-0-0-0-0-0-0-7-8-7-0-3-3-3-3-|
5--/8--8--8-0-0-0-0-7-8-7-0-3-3-3-3-7-8-7-0-0-0-0-0-0-7-8-7-0-3-3-3-3-|
6-----------0-0-0-0-7-8-7-0-3-3-3-3-7-8-7-0-0-0-0-0-0-7-8-7-0-3-3-3-3-|
* = p.m.      * * *           * * *             * * *           * * *

Verse
1----------------------------------------------------------------|
2----------------------------------------------------------------|
3--10-10-10-9--9-9-9-7--7-7-7-5--5-5-5/7-7-7-7-7-xxx-7-7-xxx-7-7-|
4----------------------------------------------------------------|
5---8--8--8-7--7-7-7-5--5-5-5-3--3-3-3/5-5-5-5-5-xxx-5-5-xxx-5-5-|
6----------------------------------------------------------------|

1----------------------------------------------|
2----------------------------------------------|
3-10-10-10-9-9-9-9/12-12-12-12\5-5-5/7~~~~~~~~-|
4----------------------------------------------|
5--8--8--8-7-7-7-7/10-10-10-10\3-3-3/5~~~~~~~~-|
6----------------------------------------------|
Tap to rate this tab
 
# A B C D E F G H I J K L M N O P Q R S T U V W X Y Z