Guitaretab - guitar tabs
Song name
# A B C D E F G H I J K L M N O P Q R S T U V W X Y Z

Misc Unsigned Bands - The Falcones - Noget Andet Something Else tab

This is the best song ever! Their site is www.falcones.webbyen.dk...
Go check it and write in the Guestbook!

"NOGET ANDET" (SOMETHING ELSE)

Intro(Distorsion)Vers:
e:---------------------------------------------------------------------|
B:---------------------------------------------------------------------|
G:---------------------------------------------------------------- X 4-|
D:---------------------------------------------------------------------|
A:---------------------------------------------------------------------|
E:-3-3-3-3-3-3-3-3-3-3-3-3-3-6-5-3-1-1-1-1-1-1-1-1-1-1-1-1-1-6-6-6-----|

Chorus(DIS):
e:------------------------|
B:------------------------|
G:------------------12-XX-|
D:-5-XX-8-XX-10-XX--12-XX-| X 4
A:-5-XX-8-XX-10-XX--10-XX-|
E:-3-XX-6-XX-8--XX--------|

Vers(DIS):
e:---------------------------------------------------------------------|
B:---------------------------------------------------------------------|
G:---------------------------------------------------------------- X 4-|
D:---------------------------------------------------------------------|
A:---------------------------------------------------------------------|
E:-3-3-3-3-3-3-3-3-3-3-3-3-3-6-5-3-1-1-1-1-1-1-1-1-1-1-1-1-1-6-6-6-----|
[ Tab from: http://www.guitaretab.com/m/misc-unsigned-bands/58101.html ]
Chorus(DIS):
e:------------------------|
B:------------------------|
G:------------------12-XX-|
D:-5-XX-8-XX-10-XX--12-XX-| X 4
A:-5-XX-8-XX-10-XX--10-XX-|
E:-3-XX-6-XX-8--XX--------|

Solo(Lead Guitar)x2:
e:-13-14-15-15-13-15-14-13-------13----------------------------------------|
B:-------------------------15-15----15-13-14-13-13-13h15-------------------|
G:-------------------------------------------------------15-14-12-12-12h14-|
D:-------------------------------------------------------------------------|
A:-------------------------------------------------------------------------|
E:-------------------------------------------------------------------------|

Solo(Rythm Guitar):
e:------------------------|
B:------------------------|
G:------------------12-XX-|
D:-5-XX-8-XX-10-XX--12-XX-| X 4
A:-5-XX-8-XX-10-XX--10-XX-|
E:-3-XX-6-XX-8--XX--------|

Vers(DIS):
e:---------------------------------------------------------------------|
B:---------------------------------------------------------------------|
G:---------------------------------------------------------------- X 4-|
D:---------------------------------------------------------------------|
A:---------------------------------------------------------------------|
E:-3-3-3-3-3-3-3-3-3-3-3-3-3-6-5-3-1-1-1-1-1-1-1-1-1-1-1-1-1-6-6-6-----|

Chorus(DIS):
e:------------------------|
B:------------------------|
G:------------------12-XX-|
D:-5-XX-8-XX-10-XX--12-XX-| X 5 (Last time slow up and then just go crazy in
A:-5-XX-8-XX-10-XX--10-XX-|      the end!!)
E:-3-XX-6-XX-8--XX--------|
Related for The Falcones - Noget Andet Something Else tab
Advertisement will be closed in 10 seconds