Song name
# A B C D E F G H I J K L M N O P Q R S T U V W X Y Z

Misc Unsigned Bands - Rain Weed Syndrom - Untilted tab

This tab WAS subbmitted by cody nimmo 1 of R.W.S guitarsts our band consists of 2
guitars 1 bass and 1 drumer were 14 and no1 knows who we are
its quite simple there are 2 parts A and B
intro part A (x1)
verse part A (x2)
chorse part B (x2)
bridge part A (x1)
solo
chorse part B


Part A is..... Bm   F#    E     F#
               //// ////  ////  ///

AND PART B IS  BM   G#    C#     F#
               ////  ////  ////  ///

THE SOLO I JUST MAKE UP AS I GO BUT THE PAPER IT IS....

E|--7-7-7------------------10-B-10B--10B---7-10-7-10-7-10-7--------12-12-12-|
B|--7-7-7---P-----------------------------------------------10-7-7-12-12-12-|
G|---------9-7-----7-9~~~-----------------------------------------9---------|
D|-------------9------------------------------------------------------------|
A|--------------------------------------------------------------------------|
E|--------------------------------------------------------------------------|

E|--7-7-7----------------------------------------12-12-12---------------|
B|--7-7-7----------------------------------------12-12-12---------------|
G|--------9-7--------------------------7--------------------------------|
D|------------9-7---7~~~-----7------7H9---9-----------------------------|
A|----------------9-------7H9--9---9------------------------------------|
E|---------------------10-----------------------------------------------|

E|--7-7-7/9\7-7\5/7---7/12--9--12\5--7----12\-------------------------------|
B|--7-7-7/9\7-7\5/7---7/12--9--12\5--7--------------------------------------|
G|--------------------------------------------------------------------------|
D|--------------------------------------------------------------------------|
A|--------------------------------------------------------------------------|
E|--------------------------------------------------------------------------|

AND THATS IT ANY QUESTIONS E-MAIL ME @  rain_weed@hotmail.com
Tap to rate this tab
 
# A B C D E F G H I J K L M N O P Q R S T U V W X Y Z