Song name
# A B C D E F G H I J K L M N O P Q R S T U V W X Y Z

Misc Unsigned Bands - The Unrivaled Few - Cookies tab

Key:
PM-Palm Mute
\-Cut off

Introx2
e------------------------------|
B------------------------------|
G------4----6------------------|
D-6----4(x8)6(x8)4----6--------|
A-6(x8)2----4----4(x4)6(x4)----|
E-4--------------2----4--------|

Chorus(same as intro)x2

Verse:PM x2
e------------------------------|
B------------------------------|
G------4----6------------------|
D-6----4(x8)6(x8)4----6--------|
A-6(x8)2----4----4(x4)6(x4)----|
E-4--------------2----4--------|
Interlude:x2
e------------------------------|
B------------------------------|
G------4----6------------------|
D-6----4(x8)6(x8)4----6--------|
A-6(x8)2----4----4(x4)6(x4)----|
E-4--------------2----4--------|
Verse 2:x2
e------------------------------|
B------------------------------|
G------4----6----\-------------|
D-6----4(x8)6(x8)\-------------|
A-6(x8)2----4----\-------------|
E-4----------------------------|
Lien-Up
Intro
Chorus
Verse
chorus
interlude
verse
interlude
chorus x2
Tap to rate this tab
 
# A B C D E F G H I J K L M N O P Q R S T U V W X Y Z