Song name
# A B C D E F G H I J K L M N O P Q R S T U V W X Y Z

Misc Unsigned Bands - Road To Recovery - Dont Let Me Fall tab

Hey guys. Erm this was our first song that we wrote and is kinda punk pop, this song
kinda sounds like adams song by blink 182 or could be related to it.

Capo on 2nd fret unless you can strech that far.

Intro  On the third intro, don't palm mute
Palm muted

E|-------------------------------------------------------------------||
B|-------------------------------------------------------------------||
G|--------8-8-8-9-9-9-8-8-----8-8----------8---8-9-9-9-8-8----8-8----||
D|9-9-9-9-----------------9-9------6-6-6-6---6-------------6-6-------||
A|-------------------------------------------------------------------||
E|-------------------------------------------------------------------||

E|-------------------------------------------------------------------||
B|-------------------------------------------------------------------||
G|--------8---8-9-9-9-8-8-----8-8----------8-8-8-9-9-9-11-9-8--------||
D|4-4-4-4---4-------------4-4------2-2-2-2---------------------------||
A|-------------------------------------------------------------------||
E|-------------------------------------------------------------------||

Verse 
Palm muted

E|-------------------------------------------------------------------||
B|-------------------------------------------------------------------||
G|----8-----8-----8-----8-9-9-8-8-----8-----8-----8-----8-9-9-8-8----||
D|9-9---9-9---9-9---9-9-----------6-6---6-6---6-6---6-6--------------||
A|-------------------------------------------------------------------||
E|-------------------------------------------------------------------||

E|-------------------------------------------------------------------||
B|-------------------------------------------------------------------||
G|----8-----8-----8-----8-9-9-8-8------8-----8-----8-8-9-11-11-9-----||
D|4-4---4-4---4-4---4-4------------2-2---2-2---2-2-------------------||
A|-------------------------------------------------------------------||
E|-------------------------------------------------------------------||

Chorus 

E|-------------------------------------------------------------------||
B|-------------------------------------------------------------------||
G|8-8-8-8-8-8-8-9-9-9-8-8-----8-8--8-8-8-8-8-8-8-9-9-9-8-8-----8-8---||
D|9-9-9-9-----------------9-9------6-6-6-6-----------------9-9-------||
A|-------------------------------------------------------------------||
E|-------------------------------------------------------------------||

E|-------------------------------------------------------------------||
B|-------------------------------------------------------------------||
G|8-8-8-8-8-8-8-9-9-9-8-8-----8-8--8-8-8-8-8-8-8-9-9-9-11-11-9-9-8-8-||
D|4-4-4-4-----------------9-9------2-2-2-2---------------------------||
A|-------------------------------------------------------------------||
E|-------------------------------------------------------------------||

Bridge  *Only play that part after playing the first bit 16 times

E|-------------------------------------------------------------------||
B|-------------------------------------------------------------------||
G|8--------8-8-9-11-9*-----------------------------------------------||
D|--9--9-------------------------------------------------------------||
A|-------------------------------------------------------------------||
E|-------------------------------------------------------------------||


Song Order

Intro x3
Verse x2
Chorus x2
Verse x2
Chorus x2
Bridge x16 Then play the bit afterwards
Chorus x4 

Fade out
Tap to rate this tab
# A B C D E F G H I J K L M N O P Q R S T U V W X Y Z