Song name
# A B C D E F G H I J K L M N O P Q R S T U V W X Y Z

Misc Unsigned Bands - Black Orbit - Tell Me tab

e--------------------------------------|              new artist
B--------------------------------------|        band name:black orbit
G--------------------------------------|        song name:tell me
D----9--------9------777--666--7--9----|      album name: untitled
A--77-------77----77-------------------|
E--------------------------------------|
guitar 2
e-----------------------|        tabbed by stephen
B-----------------------|
G--990------------------|
D--990---11-11--777-0---|
A--770---11-11--777-0---|
E---------9-9---555-0---|
palm mute
e-----------------------------------------------|
B-----------------------------------------------|
G--99999999-------------------------------------|
D--99999999---99999999--11-11-11-11-11-11-11-11-|
A--77777777---99999999--11-11-11-11-11-11-11-11-|
E-------------77777777--9--9--9--9--9--9--9--9--|
chorus
e-------------------------|
B-------------------------|
G-990---------------------|
D-990-99-11-11-777-0------|
A-770-99-11-11-777-0------|
E-----77-9--9--555-0------|
verse 2 (palm mute)
e-----------------------------------------------------|
B-----------------------------------------------------|
G-99999999--------------------------------------------|
D-99999999-99999999-11-11-11-11-11-11-11-11--77777777-|
A-77777777-99999999-11-11-11-11-11-11-11-11--77777777-|
E----------77777777-9--9--9--9--9--9--9--9---55555555-|
chorus
e--------------------------|
B--------------------------|
G--990---------------------|
D--990-99-11-11--7770------|
A--770-99-11-11--7770------|
E------77-9--9---5550------|
verse 3 (palm mute)
e-------------------------------------------------------|
B-------------------------------------------------------|
G-99999999----------------------------------------------|
D-99999999-99999999-11-11-11-11-11-11-11-11-77777777----|
A-77777777-99999999-11-11-11-11-11-11-11-11-77777777----|
E----------77777777-9--9--9---9--9--9--9--9-55555555----|
Tap to rate this tab
# A B C D E F G H I J K L M N O P Q R S T U V W X Y Z