Song name
# A B C D E F G H I J K L M N O P Q R S T U V W X Y Z

Misc Unsigned Bands - The Licks - The Life tab

The Licks
The Life
written by: David Martell and Jamie Troutman
This is a new band from Arlington VA, enjoy!
Http://thelicksband.tripod.com





|----------------------------------------------------------------------|     
|-14-14-14-12-12-12-12-------------------------------------------------|
|----------------------14-14-14-13-13-13-13-13b14-13-13-13-13-13b14-13-|
|----------------------------------------------------------------------|
|----------------------------------------------------------------------|
|----------------------------------------------------------------------|
 

|----------|x3
|----------|
|-13-13-13-|
|----------|
|----------|
|----------|


|--------------------------------|
|--------------------------------|
|---------------------12---------|
|-12-12-12-11-11-11-11--10-10-9--|
|--------------------------------|
|--------------------------------|


x3|--------------------| |-----------------------------------|
  |--------------------| |-----------------------------------|
  |--------------------| |-----------------------------------|
  |-2-2--4-4--7-7--5-5-| |-2-2-2-2--4-4-4-4--7-7-7-7--5-5-5--|
  |-0-0--2-2--5-5--3-3-| |-0-0-0-0--2-2-2-2--5-5-5-5--3-3-3--|
  |--------------------| |-----------------------------------|


chorus
x3|---------------------| |--------------------|
  |---------------------| |--------------------|
  |------6-6--4-4-4-4---| |------6-6--4-4------|
  |-6-6--6-6--4-4-4-4---| |-6-6--6-6--4-4--4---|
  |-6-6--4-4--2-2-2-2---| |-6-6--4-4--2-2--4---|
  |-4-4-----------------| |-4-4------------2---|
  
  |---------------------| 
  |---------------------| 
  |------6-6--4-4-4-4---| 
  |-6-6--6-6--4-4-4-4---| 
  |-6-6--4-4--2-2-2-2---| 
  |-4-4-----------------| 

  

   Basic Outro
|---------------------|
|---------------------|
|-6-6-------2-2--1-1--|
|-6-6--4-4--2-2--2-2--|
|-4-4--4-4--0-0--2-2--|
|------2-2-------0-0--| ...Fade out...
Tap to rate this tab
# A B C D E F G H I J K L M N O P Q R S T U V W X Y Z