Song name
# A B C D E F G H I J K L M N O P Q R S T U V W X Y Z

Misc Unsigned Bands - Pure - Tall Grass tab

Song by Pure
Tabbed by braindeadzombie

This song is totally and completely awesome. Unfortunately, the band was ignored when
their album came out, so all their kickass songs have been untabbed so far and you
can't find lyrics OR information on them online. Props to the 1990's band that kicks :)

main riff, 1st chorus
e|------------------------------|------------------------------|
B|------------------------------|------------------------------|
G|------------------------------|-5---------------7------------|
D|---------------------------7--|-5---------------7------------|
A|-0---0---3---3---5---5-6-7---7|-3---------------5------------|
E|------------------------------|------------------------------|

verse
e|------------------------------|------------------------------|
B|------------------------------|------------------------------|
G|------------------------------|------------------------------|
D|------------------------------|------------------------------|
A|-0---0---0---0---0---0---0---0|03---3---3---3---3---3---3---3|
E|------------------------------|------------------------------|

e|------------------------------|------------------------------|
B|------------------------------|------------------------------|
G|------------------------------|------------------------------|
D|------------------------------|-----------------------------7|
A|3-----------------------------|-0---0---0---0---0---5---6-7--|
E|-3---3---3---3---3---3---3---3|3-----------------------------|

2nd chorus
e|------------------------------|------------------------------|
B|------------------------------|------------------------------|
G|-5---5-xxxxxx-7---7---xxxxxx--|-2----------------------------|
D|-5---5-xxxxxx-7---7---xxxxxx--|-2----------------------------|
A|-3---3-xxxxxx-5---5---xxxxxx--|-0----------------------------|
E|------------------------------|------------------------------|
                                 repeats #1, 2, 3
e|------------------------------|------------------------------|
B|------------------------------|------------------------------|
G|------------------------------|-7----------------------------|
D|-5----------------------------|-7----------------------------|
A|-5----------------------------|-5----------------------------|
E|-3----------------------------|------------------------------|
  repeat #4

bridge
e|------------------------------|------------------------------|
B|------------------------------|------------------------------|
G|-2---2------------------------|-7----------------------------|
D|-2---2-----------------------5|-7----------------------------|
A|-0---0-----------------------5|-5----------------------------|
E|-----------------------------3|------------------------------|
  play 3 times before continuing

I haven't tabbed the solo since I can't really hear it. Maybe later?
Tap to rate this tab
# A B C D E F G H I J K L M N O P Q R S T U V W X Y Z