Song name
# A B C D E F G H I J K L M N O P Q R S T U V W X Y Z

Misc Unsigned Bands - The Licks - Song 1 tab

Tabbed by: a member of The Licks
Go to our website http://thelicksband.tripod.com

Tuning: Standard
                        INTRO
e|------3--0-----1------0-------0------------------------------------------|
B|-----0--0-----3------1-------1-------1--0--------------------------------|
G|----0--0-----2------2-------0-------0------------------------------------|
D|---0--2-----0------2-------2-------2-------------------------------------|
A|--2--2------------0-------3-------2--------------------------------------|
E|-3--0----------------------------0---------------------------------------|
                       CHORUS ( moderatly fast tempo )
   G    D     C      Em    pause for a moment then go to verse

e|-3----2-----0------0-------------------------------------------------------|
B|-0----3-----1------0-------------------------------------------------------|
G|-0----2-----0------0-------------------------------------------------------|
D|-0----0-----2------2-------------------------------------------------------|
A|-2----------3------2-------------------------------------------------------|
E|-3-----------------0-------------------------------------------------------|
   x3   x3    x3     x3


                           Verse ( moderatly slow )

e|-----3----2--1---0---0---0---0--------------------------------------------|
B|-5---3----3--3---1---1---0---0--------------------------------------------|
G|-4---0----2--2---2---0---2---0--------------------------------------------|
D|-5---0----0--0---2---2---2---2--------------------------------------------|
A|-3---3-----------0---3---0---2--------------------------------------------|
E|-----0-----------------------0--------------------------------------------|
   x3  x3  x2  x3  x3  x3  x2  x2

ORDER
intro
chorus
verse
verse
chorus
chorus
intro
===============================================================================
Tap to rate this tab
 
# A B C D E F G H I J K L M N O P Q R S T U V W X Y Z