Song name
# A B C D E F G H I J K L M N O P Q R S T U V W X Y Z

Misc Unsigned Bands - Above It All - Little Black Dog tab

ARTIST: ABOVE IT ALL (www.a-i-a.co.uk)
SONG: LITTLE BLACK DOG
ALBUM: DESOLATE
TABBED: STEVE CAWOOD (derkoi@hotmail.com)
TUNING: Drop D down 1/2 step

*=let ring

Main riff

Eb -----------------------------------|
Bb -----------------------------------|
Gb -----------------------------------|
Db 7-77-77-7-77-77-3-33-33-5-55-55----|
Ab 5-55-55-7-77-77-3-33-33-5-55-55----| x 4
Db --------7-77-77-3-33-33-5-55-55----|


Riff 2

Eb ------------------------------------------------------------------|
Bb ------------------------------------------------------------------|
Gb ------------------------------------------------------------------|
Db 5-55-55-5-55-55-7-77-77-7-77-77-5-55-55-5-55-55-5-4-3-2-1-1-0*----|
Ab 3-33-33-3-33-33-5-55-55-5-55-55-3-33-33-3-33-33-5-4-3-2-1-1-0*----| x1
Db ------------------------------------------------5-4-3-2-1-1-0*----|


Middle 8 break

Eb -----------------------------------|
Bb -----------------------------------|
Gb -----------------------------------|
Db -7--7*-----------------------------|
Ab 5-5----7--7*--3--3*--5--5*---------| x 6
Db ------7-7----3-3----5-5------------|


Main riff

Eb -----------------------------------|
Bb -----------------------------------|
Gb -----------------------------------|
Db 7-77-77-7-77-77-3-33-33-5-55-55----|
Ab 5-55-55-7-77-77-3-33-33-5-55-55----| x 4
Db --------7-77-77-3-33-33-5-55-55----|


Riff 2

Eb ------------------------------------------------------------------|
Bb ------------------------------------------------------------------|
Gb ------------------------------------------------------------------|
Db 5-55-55-5-55-55-7-77-77-7-77-77-5-55-55-5-55-55-5-4-3-2-1-1-0*----|
Ab 3-33-33-3-33-33-5-55-55-5-55-55-3-33-33-3-33-33-5-4-3-2-1-1-0*----| x1
Db ------------------------------------------------5-4-3-2-1-1-0*----|

Music by Steve Cawood (derkoi@hotmail.com)
Lyrics by Andrew McGlynn (wizard_master_uk@hotmail.com)
Tap to rate this tab
 
# A B C D E F G H I J K L M N O P Q R S T U V W X Y Z