Song name
# A B C D E F G H I J K L M N O P Q R S T U V W X Y Z

Misc Unsigned Bands - The Ringos - The Holocaust tab

e---------------------------------|
b---------------------------------|
g--5---x--------------------------|      x 4
d--5---x---5---7------------------|
a--3---x---5---7-------3-6-3------|
e----------3---5---3-5-------5-3--|


e--------------------------------|
b--------------------------------|
g--------------------------------|       x 5
d--4-4-4-4-4-4-4--5-5-5-5-5-5-5--|
a--5-5-5-5-5-5-5--5-5-5-5-5-5-5--|
e--------------------------------|

e--------------------------------|
b--------------------------------|
g--------------------------------|
d--4-4-4-4-4----6-6-6-7-7--------|
a--5-5-5-5-5----7-7-7-7-6--------|
e--------------------------------|

do all of this twice for the full song
Tap to rate this tab
# A B C D E F G H I J K L M N O P Q R S T U V W X Y Z