Song name
# A B C D E F G H I J K L M N O P Q R S T U V W X Y Z

Misc Unsigned Bands - The Licks - Second Impressions Are Better Than The First tab

http://thelicksband.tripod.com
This is a new band from Arlington V.A.


b=bend
bb=bend back

intro
|----------------------------------------------|
|----------------------------------------------|
|------12----12----12----12----12----12----12--|
|----12----12----12----12----12---12----10-----|
|--14----12----10----9----10----12----10-------|
|----------------------------------------------|

chorus
   |-----------------|
   |-----------------|
   |-----------------|
   |--14-10-10-9-----|
   |--12-8--10-7-----|
   |-----------------|


solo
|-------------------------------------------------------------------|
|---------------15--------------15--------------17--------------15--|
|--17b18bb17-17----16b17bb16-16----18b19bb18-18----17b18bb17-17-----|
|-------------------------------------------------------------------|
|-------------------------------------------------------------------|
|-------------------------------------------------------------------|
repeat 2x


|-----------------------------------------------------------------|
|--15-15-17-15-----17-15-----17-15-----17-15----------------------|
|-------------17-14-----17-12-----17-14-----17-12-12-12-12-12-14--|
|-----------------------------------------------------------------|
|-----------------------------------------------------------------|
|-----------------------------------------------------------------|



outro( play intro then this after )
|------------------------------------|
|------------------------------------|
|------12---------12-------12---12---|
|----12--12-----12--12-------12-10---|
|--14------12-12------12-10-----10---|
|------------------------------------|
Tap to rate this tab
 
# A B C D E F G H I J K L M N O P Q R S T U V W X Y Z