Song name
# A B C D E F G H I J K L M N O P Q R S T U V W X Y Z

Misc Unsigned Bands - Maladroit - This Town tab

This is a band with no recording contract or anything they just play for fun and are
extremely good and heres my favorite song they they've wrote so far its called This
town

Intro:
E|--------------------------------------------------------------------------|
B|--------------------------------------------------------------------------|
G|--2-2-3-2-3-3-3-0-0-0-0-0-0-0------------------------------------x3-------|
D|--2-2-2-2-2-2-2-2-2-4-2-0-0-0---------------------------------------------|
A|--------------------------------------------------------------------------|
E|--------------------------------------------------------------------------|
  PM------------------------------------------------------------------------|


     (Where i grew up is.....)
E|--------------------------------------------------------------------------|
B|--------------------------------------------------------------------------|
G|--2-2-3-2-3-3-3-0-0-0-0-0-0-0------------------------------------x3-------|
D|--2-2-2-2-2-2-2-2-2-4-2-0-0-0---------------------------------------------|
A|--------------------------------------------------------------------------|
E|--------------------------------------------------------------------------|


     (Now all you remember.....)
Verse 1:
-G-G-G-G-G-A7-A7-A7-A7-A7-C-C-C-C-C----------------X4


     (As we go you gotta think back.....)
Chorus:
-A5-A5-A5-D5-D5-D5-E5-E5-E5-C5-D5-D5-C5------------X2


     (Burning motion continuing on and on and.....)
Verse 2:
-Dm-Dm-Dm-Dm-Dm-F*-F*-F*-F*-F*-A-A-A-A-A-----------X4


Solo:
E|--5-5-5-5-3--3-3--0-0-0-0-0-0-0-0--------------------------------------|
B|-----------------------------------5-5-5-5-3--3-3--0-0-0-0-0-0-0-0-----|
G|--------------------------------------------------------------------X3-|
D|-----------------------------------------------------------------------|
A|-----------------------------------------------------------------------|
E|-----------------------------------------------------------------------|


     (Now theres no excuse.....)
-A7-A7-A7-C7-C7-C7-G7-G7-G7-B7-B7-B7-----------------------X4


Outro:
E|-3-0-------------------------------------------------|
B|-----3-0---------------------------------------------|
G|---------3-0-----------------------------------------|
D|-------------3-0-------------------------------------|
A|-----------------3-0---------------------------------|
E|---------------------3-2h----------------------------|


thats it, hope you enjoy
Tap to rate this tab
 
# A B C D E F G H I J K L M N O P Q R S T U V W X Y Z