Song name
# A B C D E F G H I J K L M N O P Q R S T U V W X Y Z

Misc Unsigned Bands - X-it - Shes Undefined tab

tHIS IS THE SOLO FOR A BAND CALLED X-IT WHOME EVERY1 LUVS IN OUR TOWN!!
altho this is just
guitar 1 playin, bcus i no the guy.

B=BEND UP AND DOWN
h= hammer down after playin the note before.
e|------------------------------------------------|
B|------------------------------------------------|
G|------------------------------------------------|
D|----0H20h20h20h2-----0h20h20h20h2-4h5-4---------|        x2
A|-----------------0-2----------------------------|
E|------------------------------------------------|

e|---------------------------------------------------------------|
B|---------------------------------------------------------------|
G|----------------------------7-7-0-7-B5--7-7-0-7-B5--7-7-0-7----|B5
D|----2--2-2-3--3-3--4--4-4---7-7-5-7-----7-7-0-7-----7-7-5-7----|
A|---------------------------------------------------------------|
E|---------------------------------------------------------------|


e|--------------------------------------|
B|--------------------------------------|
G|--------------------------------------|
D|7-5-7---------------------------------|
A|------5-7-5-7-5--7--5-----------------|
E|----------------------8-8-8-8-8--5--5-|
Tap to rate this tab
# A B C D E F G H I J K L M N O P Q R S T U V W X Y Z