Song name
# A B C D E F G H I J K L M N O P Q R S T U V W X Y Z

Misc Unsigned Bands - Street Lethal - Life Of Filth tab

street-lethal are a band that is not very well known.
			     Life of Filth - Street Lethal
-----------------------------------------------------------------------------
Tabbed by:Ben Galbraith
Email:

Tuning:EADGBe

Intro/main riff

e|----------------------------------------------------------------------|
B|----------------------------------------------------------------------|
G|----------------------------------------------------------------------|
D|----------------------------------------------------------------------|
A|--9-9-9--5-5-5-5--7-7-7-7--8-8-8-8------------------------------------|
E|--7-7-7--3-3-3-3--5-5-5-5--6-6-6-6------------------------------------|

Choris

e|-----------------------------------------------------------------|
B|-----------------------------------------------------------------|
G|-----------------------------------------------------------------|
D|--9-9-9-9-9-9-9-9-9--7--5-5-5-5-5-5-5-5-5------------------------|
A|--7-7-7-7-7-7-7-7-7--5--3-3-3-3-3-3-3-3-3------------------------|
E|-----------------------------------------------------------------|


Lead guitar/vocals - Ben Galbraith
Backing guitar - Tom nuggent
Bass guitar - Rob Smith
Drums - Mark Burlenson

Street Lethal
are a new band going but this is one of there simple tabs to play enjoy.
Tap to rate this tab
# A B C D E F G H I J K L M N O P Q R S T U V W X Y Z