Guitaretab - guitar tabs
Song name
# A B C D E F G H I J K L M N O P Q R S T U V W X Y Z

Misc Unsigned Bands - Niche39 - Sores Bores And Whores tab

-------------------------------------------------------------------------------
			     SORES, BORES, & WHORES(intro) - Niche39
-------------------------------------------------------------------------------
Tabbed by: Bizzy-C
Email: lorusso_33_3@hotmail.com

Ok, this is a band from a small town that probably no one has heard of, but I think
their pretty damn good. Anyways heres the intro to their first album 'The Famous Un-
Knowns'
[ Tab from: http://www.guitaretab.com/m/misc-unsigned-bands/59098.html ]
Tuning: Standard
(Guitar 1)
e|---------------------------------------------------------------------------|
B|---------------------------------------------------------------------------|
G|---9--------------7---------------5---------------4-3----------------------|
D|---9----...-------7------...------5------...------4-3------X2--------------|
A|---7--------------5---------------3---------------2-1----------------------|
E|---------------------------------------------------------------------------|
(Both Guitars)
e|---------------------------------------------------------------------------|
B|---------------------------------------------------------------------------|
G|---------------------------------------------------------------------------|
D|---9--------------7---------------5---------------4-3----------------------|
A|---9--------------7---------------5---------------4-3------X2(2ndTimeHarder|
E|---7--------------5---------------3---------------2-1----------------------|
(Guitar 2)
e|--9--(PalmMuted)-----------------------------------------------------------|
B|--9--(RepeatTillSongEnds)--------------------------------------------------|
G|--7------------------------------------------------------------------------|
D|---------------------------------------------------------------------------|
A|---------------------------------------------------------------------------|
E|---------------------------------------------------------------------------|
(Guitar 1-Solo)     
e|-9-9-------9-9-7-8-9-9-9-------9-9-9-8-7--9-8-7-6-5------------------------|
B|-9-9-9-8-7-9-9-------9-9-7-8-9-9-9--------9-8-7-6-5------------------------|
G|-7-7-------7-7-------7-7-------7-7--------7-6-5-4-3------------------------|
D|---------------------------------------------------------------------------|
A|---------------------------------------------------------------------------|
E|---------------------------------------------------------------------------|
(Both guitars)
e|---------------------------------------------------------------------------|
B|---------------------------------------------------------------------------|
G|--0------------------------------------------------------------------------|
D|--0--(LetRingIntoNextSong)-------------------------------------------------|
A|--0------------------------------------------------------------------------|
E|--0------------------------------------------------------------------------|

Niche 39- www.freewebs.com/niche39/index.htm
Related for Niche39 - Sores Bores And Whores tab
Advertisement will be closed in 10 seconds