Song name
# A B C D E F G H I J K L M N O P Q R S T U V W X Y Z

Misc Unsigned Bands - The Licks - Bacon And Eggs tab

	     BACON & EGGS - THE LICKS
Tabbed by:The licks member
http://thelicksband.tripod.com
Strumming: verse:down down up,down up down up, down down up, down up down up, 
up down up down up
Tuning:standard
                      INTRO
e|---------------------------------------------------------------------------|
B|---------------------------------------------------------------------------|
G|---------------------------7--5--------------------------5--7--5-----------|
D|----------7--5-------------7--5--------------7--5---5--7---------7--5------|
A|-----5^0--7--5-------5^0---------------5^0---7--5--------------------------|
E|5--8------------5--8--------------5--8--------------------------------8-5~-|
                     VERSE( repeat three times)
e|2-2-2---------------------------------------------------------------------|
B|1-1-1-2-2-2---------------------------------------------------------------|
G|2-2-2-0-0-0-2-2-2-1-1-1---------------------------------------------------|
D|------2-2-2-0-0-0-0-0-0---------------------------------------------------|
A|------------2-2-2-2-2-2---------------------------------------------------|
E|--------------------------------------------------------------------------|

                     CHORUS
e|-0-3-2-0------------------------------------------------------------------|
B|-3-3-3-1------------------------------------------------------------------|
G|-2-0-2-2------------------------------------------------------------------|
D|-0-0-0-2------------------------------------------------------------------|
A|---3----------------------------------------------------------------------|
E|--------------------------------------------------------------------------|
  x8 x5 x5 x8

| /  slide up             ORDER
| \  slide down           intro
| h  hammer-on            verse
| p  pull-off             chorus
| ~  vibrato              verse
| +  harmonic
| x  Mute note
===============================================================================
Tap to rate this tab
# A B C D E F G H I J K L M N O P Q R S T U V W X Y Z