Song name
# A B C D E F G H I J K L M N O P Q R S T U V W X Y Z

Misc Unsigned Bands - 6 Days No Power - For The Last Time tab

this is another song from jax floridas 6 days no power on their LP they will release it in about a month

INTRO x2
[--------------------------]
[--------------------------]
[--------------------------]
[--------------------------]
[------4-------------------]
[----------4---6----4------]

Verse x4
[--------------------------]
[--------------------------]
[---6---8------------------]
[---x---x-------8-----6----]
[---4---6-------x-----x----]
[---------------6-----4----]

Chorus               Let it ring
[---------------|---------]
[---------------|---------]
[---------------|---------]
[--6--------6---|---------]
[--4-6-4-6--4-6-|-4-------]
[----4-2-4----4-|-2-------]

Bridge
[---------------------------------------]
[---------------------------------------]
[---------------------------------------]
[-6-------6-8-11111111-1313131313131313-]
[-4-6-4-6-4-6-9-9-9-9--1111111111111111-]
[---4-2-4-------------------------------]

play chorus 3x then end song on
[---]
[---]
[---]
[-4-]
[-2-]
[---]
[
Tap to rate this tab
# A B C D E F G H I J K L M N O P Q R S T U V W X Y Z