Song name
# A B C D E F G H I J K L M N O P Q R S T U V W X Y Z

Misc Unsigned Bands - Fatal Deception - Demo tab

We are a New band from Dartmouth, NS weve been together for like 3 months and we are in 
process of making a song heres the intro:

trill = ~
bend = V
e|-----------------9--8--7--6--5--3--2--3~----------------------------------|
B|--------------------------------------------------------------------------|
G|--------------------------------------------------------------------------|
D|--------------------------------------------------------------------------|
A|--0--6--0--6--5-----------------------------------------------------------|
E|--0--6--0--6--5-----------------------------------------------------------|


e|-----------------5--6--7-----------------------------------------------------|
B|--------------------------7--6-----------------------------------------------|
G|--------------------------------6V-------------------------------------------|
D|-----------------------------------------------------------------------------|
A|--0--6--0--6--5--------------------------------------------------------------|
E|--0--6--0--6--5--------------------------------------------------------------|


repeat 10 times
Tap to rate this tab
# A B C D E F G H I J K L M N O P Q R S T U V W X Y Z