Song name
# A B C D E F G H I J K L M N O P Q R S T U V W X Y Z

Misc Unsigned Bands - The Urban Iceage - Distant Sunlight tab

The Urban Iceage is a local band. Started last year in Mississippi.

-----------------------------------------------------------------
Song: Distant Sunlight
Band: The Urban Iceage
Album: First Mike Play

Tabbed by:SCEWTX
Email:rdi2@bellsouth.net

Tuning:standard

Intro
e|---------------------------------------------------------------|
B|---------------------------------------------------------------|
G|---------------------------------------------------------------|
D|---------------------------------------------------------------|
A|---------------------------------------------------------------|
E|0-0-0-0-0-0-0-0-3-3-3-3-3-3-3-3-5-5-5-5-5-5-5-5-7-7-7-7-7-7-7-7|

e|---------------------------------------------------------------|
B|---------------------------------------------------------------|
G|---------------------------------------------------------------|
D|---------------------------------------------------------------|
A|---------------------------------------------------------------|
E|12-12-12----15-15-15-15-------9-9-9-----13-13-13-13--------1h--|

Chorus
e|--0-------0----------------------------------------------------|
B|-0------0------------------------------------------------------|
G|---------------------------------------------------------------|
D|---------------------------------------------------------------|
A|---------------------------------------------------------------|
E|0-----1--------------------------------------------------------|

Repeat Chorus Four Times


e|--1------7--------------------------12-------------------------|
B|---2------8-------------------------12-------------------------|
G|----3------9------------------------12-------------------------|
D|-----4------10----------------------12-------------------------|
A|------5-------11--------------------12-------------------------|
E|-------6--------12\-----------------12-------------------------|

Where you slide down (see above) switch the gain and the bass to max.


| / slide up
| \ slide down
| h hammer-on
| p pull-off
| ~ vibrato
| + harmonic
| x Mute note
Tap to rate this tab
# A B C D E F G H I J K L M N O P Q R S T U V W X Y Z