Song name
# A B C D E F G H I J K L M N O P Q R S T U V W X Y Z

Misc Unsigned Bands - Death Via Newt - What Lies Below tab

Song has no real structure, Just Intro, Verse and Solo. No Lyrics.

Intro-
Guitar 1: Clean
e|--------------------------|
B|--------------------------|
G|--------------------------|
D|--------------------------|
A|---7-7-7-5-5-5-9-9-9-10-9-|
E|--5-5-5-3-3-3-7-7-7-8-7---|X2

Guitar 2 Comes in while Guitar 1 Repeat
e|------------------------|
B|------------------------|
G|------------------------|
D|------------------------|
A|--7----5----9--10-9-----|
E|--5----3----7--8--8-----|

Verse/Solo

Guitar 1: Distortion
e|------------------------|
B|------------------------|
G|------------------------|
D|------------------------|
A|-7--7-7-5-5-5--9--9-10-9|
E|-5--5-5-3-3-3--7--7-8--7|X4

Guitar 1 Repeat, Guitar 2: Distortion (Solo Part)
e|------------------------|
B|------------------------|
G|-5--5-5-4-4-4--7--7-8-7-|
D|------------------------|
A|------------------------|
E|------------------------|X4

(Guitar 2): End on last 7. Hold and slowly bend up and down for outro.

End
Tap to rate this tab
# A B C D E F G H I J K L M N O P Q R S T U V W X Y Z