Song name
# A B C D E F G H I J K L M N O P Q R S T U V W X Y Z

Misc Unsigned Bands - A Bitter Farewell - The Lovely Taste Of Poison tab

-----------------------------------------------------------------------------
	          The Lovely Taste of Poison - A Bitter Farewell
-----------------------------------------------------------------------------

Tuning: Standard


e|---------------------------------------------------------|
B|---------------------------------------------------------|
G|-5---------3-3-------------------------------------------|
D|-5-5-5-6-6-----6-------------8-------------3-0-0-1-1-----|
A|-3-------------6-5-5-6-6-8-8-8-5-5-6-6-8-8-3---------3-3-|
E|---------------4-------------6-------------1-------------|
Tap to rate this tab
 
# A B C D E F G H I J K L M N O P Q R S T U V W X Y Z