Song name
# A B C D E F G H I J K L M N O P Q R S T U V W X Y Z

Misc Unsigned Bands - No Remorse - Took My Life Away tab

"Took My Life Away"
written by: Chris Sergnese & Ethan Pirson of No Remorse
SUBMITTED BY: STEVEN RICHARDSON
You probably haven't heard of these guys before, they're a new Canadian band. I just
found out about them recently, and they sound really good. This song is really catchy
and fun to play, it's real easy too!


This is basically how the whole song goes.

MAIN VERSE:

E-------------------------------------|
B-------------------------------------|
G-----0-------0-------0---------------|
D---2---2---2---2---0---0---0---0-----|
A-------------------------------------|
E--0-------3-------2-------3---2------|

Repeat 5x

CHORUS:

E-----------------------------------|
B-----------------------------------|
G-----------------------------------|
D--2--2---5--5----------------------|
A--2--2---3--3---5--5---4---5---4---|
E--0--0----------3--3---2---3---2---|

Repeat 2x

Sorry I haven't figured out the solo for this song yet, once I figure it out, I will 
it.
Tap to rate this tab
# A B C D E F G H I J K L M N O P Q R S T U V W X Y Z