Song name
# A B C D E F G H I J K L M N O P Q R S T U V W X Y Z

Misc Unsigned Bands - Lester - Blow It In Your Face tab

Help us improve GuitareTab! Take a short survey!
Tabbed by : Ska 4 life

Lester is a local band in scranton pa that is great   i left a link for them at the
bottom

All cords except the power chords are played with a ska rythm
Listen to the song to figure out how it goes.


Into                                 x4
e|--------------------------444444444--------------------------------------|
B|--------------------------444444444--------------------------------------|
G|-66666-999-11 11 11-------555555555--------------------------------------|
D|-66666-777-11 11 11-------666666666--------------------------------------|
A|-44444-777--9--9--9------------------------------------------------------|
E|-------------------------------------------------------------------------|



Verse               x6
e|-8--8--66--8--8-66-------------------------------------------------------|
B|-8--8--77--9--9-77-------------------------------------------------------|
G|10-10--88-10-10-88-------------------------------------------------------|
D|10 10--------------------------------------------------------------------|
A|10 10--------------------------------------------------------------------|
E|-8--8--------------------------------------------------------------------|




Chorus                                x2
e|--8--8--8--8--6666--8--8--8--8--6666-------------------------------------|
B|-10-10-10-10--7777--9--9--9--9--7777-------------------------------------|
G|-10-10-10-10--8888-10-10-10-10--8888-------------------------------------|
D|-10-10-10-10-------------------------------------------------------------|
A|--8--8--8--8-------------------------------------------------------------|
E|--8--8---8--8------------------------------------------------------------|




Verse               x6
e|-8--8--66--8--8-66-------------------------------------------------------|
B|-8--8--77--9--9-77-------------------------------------------------------|
G|10-10--88-10-10-88-------------------------------------------------------|
D|10 10--------------------------------------------------------------------|
A|10 10--------------------------------------------------------------------|
E|-8--8--------------------------------------------------------------------|




Chorus                                x2
e|--8--8--8--8--6666--8--8--8--8--6666-------------------------------------|
B|-10-10-10-10--7777--9--9--9--9--7777-------------------------------------|
G|-10-10-10-10--8888-10-10-10-10--8888-------------------------------------|
D|-10-10-10-10-------------------------------------------------------------|
A|--8--8--8--8-------------------------------------------------------------|
E|--8--8---8--8------------------------------------------------------------|




Verse               x9
e|-8--8--66--8--8-66-------------------------------------------------------|
B|-8--8--77--9--9-77-------------------------------------------------------|
G|10-10--88-10-10-88-------------------------------------------------------|
D|10 10--------------------------------------------------------------------|
A|10 10--------------------------------------------------------------------|
E|-8--8--------------------------------------------------------------------|




Chorus                                x2
e|--8--8--8--8--6666--8--8--8--8--6666-------------------------------------|
B|-10-10-10-10--7777--9--9--9--9--7777-------------------------------------|
G|-10-10-10-10--8888-10-10-10-10--8888-------------------------------------|
D|-10-10-10-10-------------------------------------------------------------|
A|--8--8--8--8-------------------------------------------------------------|
E|--8--8---8--8------------------------------------------------------------|


Verse                                 x4
e|--8--8--8--8--6666--8--8--8--8--6666-------------------------------------|
B|-10-10-10-10--7777--9--9--9--9--7777-------------------------------------|
G|-10-10-10-10--8888-10-10-10-10--8888-------------------------------------|
D|-10-10-10-10-------------------------------------------------------------|
A|--8--8--8--8-------------------------------------------------------------|
E|--8--8---8--8------------------------------------------------------------|


The outro is something that is really distorted  i think its the same as the
into  but different strumming    listen to the song and figure it out
if u never heard lester  then go to    www.purevolume/lester and listen  its a
great ska core / ska band   suporting my locals
Related for Lester - Blow It In Your Face tab