Song name
# A B C D E F G H I J K L M N O P Q R S T U V W X Y Z

Misc Unsigned Bands - Red Light Knights - Rodeo Clown tab

"Rodeo Clown"
Red Light Knights

Bee Jay:
e-3---3---3---3---5---7---7---7---3---3---3---3---5---7---7---7--------|
B---5---5---5---5---5---5---5---5---5---5---5---5---5---5---5----------|
G----------------------------------------------------------------------|
D----------------------------------------------------------------------|
A----------------------------------------------------------------------|
E----------------------------------------------------------------------|

Tyson:
e----------------------------------------------------------------------|
B----------------------------------------------------------------------|
G----------------------------------------------------------------------|
D--------9--------------9----------------------------------------------|
A--10/12---10/12-9-10/12---10/12-9-------------------------------------|
E----------------------------------------------------------------------|
Tap to rate this tab
 
# A B C D E F G H I J K L M N O P Q R S T U V W X Y Z