Song name
# A B C D E F G H I J K L M N O P Q R S T U V W X Y Z

Misc Unsigned Bands - Crestfallen - The Point Of No Return tab

Crestfallen is a band out of Brownsburg, IN. They play many types of music but mostly
grunge(quiet verse, loud chorus). This is there first song they recorded and it is
entitled The Point of No Return.

The Point of No Return

Written by Daniel Myers, Chance Parker, Rob Stout, and Jared Myers; otherwise known as
the new band in town Crestfallen

All Guitars are in Standard Tuning (E,A,D,G,B,E)

Intro (w/ dist.)

|----------------------------------|
|----------------------------------|
|----------------------------------|
|---2---3-3---x---4-4---7-7--------|
|---2---3-3---x---4-4---7-7--------|
|---0---1-1---x---2-2---5-5--------|


Verse (Clean)

|----------------------------------|
|----------------------------------|
|----------------------------------|
|----------------------------------|
|----------------------------------|
|--0--1--1--2--2--5--5--5--5-------|


Chorus  (w/ dist.)

|-------------------------------------------------------------------------|
|-------------------------------------------------------------------------|
|---------------------777777777777-8888-----------------------------------|
|---555555555555-7777-777777777777-8888-999999999999-11-11-11-11--2-----5-|
|---555555555555-7777-555555555555-6666-999999999999-11-11-11-11--2-----5-|
|---333333333333-5555-------------------777777777777--9--9--9--9--0-----3-|
Tap to rate this tab
# A B C D E F G H I J K L M N O P Q R S T U V W X Y Z