Song name
# A B C D E F G H I J K L M N O P Q R S T U V W X Y Z

Misc Unsigned Bands - The Dynamics - Honey tab

Help us improve GuitareTab! Take a short survey!
hey whats up! im a member of the band i think this song is pretty neat.

intro / hey this is a new band that hasnt made a cd yet but they have a record deal. we 
going to play a little punk and sothern rock

e---------------------------------------------------------------|
b---------------------------------------------------------------|
g----10-10--xxxx--10-10--xxxx--10-10----------------------------|
d----10-10--xxxx--10-10--xxxx--10-10---10--8--------------------|  x2
a----8---8--xxxx---8--8--xxxx---8--8---10--8--------------------|
e---------------------------------------8--6--------------------|

then after you do that ad this to it...

e---------------------------------------------------------------|
b---------------------------------------------------------------|
g---8--8--------------------------------------------------------|
d---8--8---8--9--10---------------------------------------------|
a---6--6---8--9--10---------------------------------------------|
e----------6--7---8---------------------------------------------|

then u just reapeat what was above for the verse just play these faster
Related for The Dynamics - Honey tab