Song name
# A B C D E F G H I J K L M N O P Q R S T U V W X Y Z

Misc Unsigned Bands - Side Fx - Well How About That tab

Side FX-
Well How About That?

From The E.P- Heres To You Mrs. Fleckenstein

www.freewebs.com/side-fx
www.side-fx-music.tk

INTRO

= - Palm Mute
( ) - Bend


--------------------------------------|
--------------------------------------|
--------------------------------------|
--------------------------------------|
------------5=7=9=11------------------|  Repeat X1
---7=5=3=5----------------------------|

MAIN

---==-==------------------------------|
---==-==------------------------------|
---==-==------------------------------|  Repeat X2
---11-11--11-11--9-9--7-7--9-9--------|
---11-11--11-11--9-9--7-7--9-9--------|
---9--9---9--9---7-7--5-5--7-7--------|

^^^^^^^^^^^^^^
after 2nd time

-----------------------|
-----------------------|
-----------------------|
---11-11--9-9----------|
---11-11--9-9-0--------|
---9--9---7-7--4-2-0---|

SOLO:

---------------------------------------------------------|
---------------------------------------------------------|
----------------------(10)-------------------------------|
-12-12-12-------10-12----12-12-12-------(10)-------------|
----------10-12-------------------10-12------------------|
---------------------------------------------------------|

-----------------------------------------10-(12)-10--------|
------------------------------------10-12-----------(12)---|
----------------------(10)-12-12-12------------------------|
-12-12-12-------10-12--------------------------------------|
----------10-12--------------------------------------------|
-----------------------------------------------------------|

OUTRO:

---==-==------------------------------|
---==-==------------------------------|
---==-==------------------------------|  Repeat X2
---11-11--11-11--9-9--7-7--9-9--------|
---11-11--11-11--9-9--7-7--9-9--------|
---9--9---9--9---7-7--5-5--7-7--------|

after 2nd time

-----------------------------------------------------------------------------|
-----------------------------------------------------------------------------|
-----------------------------------------------------------------------------|
---11-11--9-9--5-5-5-5-5-5-5-5-5-5--5--5--5--5--5--5--5--5--5--5-------------|
---11-11--9-9--5-5-5-5-5-5-5-5-5-5--5--5--5--5--5--5--5--5--5--5--0----------|
---9--9---7-7--3-3-3-3-3-3-3-3-3-3--3--3--3--3--3--3--3--3--3--3-----4-2-0---|

That's 100% Correct, Trust Me!
Tap to rate this tab
 
# A B C D E F G H I J K L M N O P Q R S T U V W X Y Z