Song name
# A B C D E F G H I J K L M N O P Q R S T U V W X Y Z

Misc Unsigned Bands - Zygote - Saturn tab

----------------------------------------------------------------------------
			     Saturn - Zygote
----------------------------------------------------------------------------
Tabbed by: Cary Urowitz
Email: careshel@hotmail.com

Tuning: EADGBe

No one really knows Zygote, they were a band from Toronto, Canada. They broke up but I
hear they are coming back now for a reunion show.

Note: This is my first tab, if you know the solo, add it or email it to me. I think the
chorus could be different but it sounds OK the way I have it.

Intro:
e|-12--------11-------10-------9-------------------------------------------|
B|----11--------10--------9-------8----------------------------------------|
G|-------10--------9---------8-------7-------------------------------------|
D|-------------------------------------------------------------------------|
A|-------------------------------------------------------------------------|
E|-------------------------------------------------------------------------|
(Repeat 5 times)

Verse:
Bm , E
use power or barre chords
e|---7-----7---------------------------------------------------------------|
B|---7-----7---------------------------------------------------------------|
G|---7-----9---------------------------------------------------------------|
D|---9-----9---------------------------------------------------------------|
A|---9-----7---------------------------------------------------------------|
E|---7-----x---------------------------------------------------------------|
Repeat a bunch of times

Lick/ Chorus
Barre or Power Chords: Bm, E, G, C
e|----7------7------10------10---------------------------------------------|
B|----7------7------10------10---------------------------------------------|
G|----7------9------12------10---------------------------------------------|
D|----9------9------12------12---------------------------------------------|
A|----9------7------10------12---------------------------------------------|
E|----7------x------xx------10---------------------------------------------|



Intro
Lick
Verse
Chorus
Lick
Verse
Chorus
Solo??
Intro/Lick
Verse
Chorus
Tap to rate this tab
# A B C D E F G H I J K L M N O P Q R S T U V W X Y Z