Guitaretab - guitar tabs
Song name
# A B C D E F G H I J K L M N O P Q R S T U V W X Y Z

Misc Unsigned Bands - Northern Swagger - Why tab

Main RIff
|---------------------------------------------------------|
|-3-------------------------------------------------------|
|-2---2-2----------------------2--2-2-2-------------------|
|-0---2-2--2------2-----2------2--2-2-2-------------------|
|-----0-0--2------2-----2------0--0-0-0-------------------|
|---0------0-x-3b-0-x-x-0-x-3b----------------------------|
Intro
|---------------------------------------------------------|
|--3------------------------------------------------------|
|--2-----2----------------X2------------------------------|
|--0-----2----2-------------------------------------------|
|--------0----2-------------------------------------------|
|-------------0---0-3-5-----------------------------------|
Chorus
|---------------------------------------------------------|
|-3-3--3--------------------------------------------------|
|-2--2--2--2-2--2------------2-2-2------------------------|
|-0---0--0-2--2--2--2-2--2---2-2-2------------------------|
|----------0---0--0-2--2--2--0-0-0-X2---------------------|
|-------------------0---0--0------------------------------|
Post chorus
|---------------------------------------------------------|
|---------------------------------------------------------|
|--7---7---------------------7-7--7-----------------------|
|--7---7-7---5-7-------5--7--7-7--7-----------------------|
|----0---7-7-5-7----7--5--7-------------------------------|
|----------7--------7-------------------------------------|
Solo
|---------------------------------------------------------|
|--15-----------------------------------------------------|
|--14-14-14----------------------------12-14b16b16b16-----|
|-----14-14-14----14-------------14h16--------------------|
|-----------14-16-14----14h116-x--------------------------|
|--------------16-----xx----------------------------------|

|---------------------------------------------------------|
|-12h15p12"12h15p12---15p12-----------------------------|
|---------14-------14------14-12h14p12--------------------|
|-------------------------X6-----------14-12h14p12--------|
|-------------------------------------------------14-114-14
|---------------------------------------------------------|

|------10--10-12b14b14-------10----10-12b14b14r12p10------|
|-10h12--12------------10-12----12------------------12----|
|---------------------------------------------------------|
|---------------------------------------------------------|
|---------------------------------------------------------|
|---------------------------------------------------------|

|-10h12p10"10h12p10---------12p10-----------------------|
|---------10-------10-10-10------10-12p10-----------------|
|-----------------------------------------11-9-11---------|
|------------------------------------------------9-11b----|
|---------------------------------------------------------|
|---------------------------------------------------------|
[ Tab from: http://www.guitaretab.com/m/misc-unsigned-bands/60367.html ]
Related for Northern Swagger - Why tab