Guitaretab - guitar tabs
Song name
# A B C D E F G H I J K L M N O P Q R S T U V W X Y Z

Misc Unsigned Bands - Northern Swagger - Swagger tab

Intro/Verse
e|-5/7-7-7-x-5/7--7--7-x-x-5/7-7-7-x-5/7--7--7-------------------------------|
B|-6/8-8-8-x-6/8--8--8-x-x-6/8-8-8-x-6/8--8--8-------------------------------|
G|-7/9-9-9-x-7/9--9--9-x-x-7/9-9-9-x-7/9--9--9-------------------------------|
D|-7/9-9-9-x-7/9--9--9-x-x-7/9-9-9-x-7/9--9--9-------------------------------|
A|-5/7-7-7-x-5/7--7--7-x-x-5/7-7-7-x-5/7--7--7-------------------------------|
E|---------------------------------------------------------------------------|
[ Tab from: http://www.guitaretab.com/m/misc-unsigned-bands/60368.html ]
Chorus
e|---------------------------------------------------------------------------|
B|---------------------------------------------------------------------------|
G|-7/9-9-x-x-9/7-7-----7/9-9-x-9/7/9/7/9/7-----------------------------------|
D|-------x-x-------x-x-------x-----------------------------------------------|
A|-5/7-7-----7/5-5-x-x-5/7-7-x-7/5/7/5/7/5-----------------------------------|
E|---------------------------------------------------------------------------|
Outro
e|---------------------------------------------------------------------------|
B|--9---7---5-----5--/--9------7---9-----------------------------------------|
G|---------------------------------------------------------------------------|
D|--7---5---3-----3--/--7------5---7-----------------------------------------|
A|---------------------------------------------------------------------------|
E|---------------------------------------------------------------------------|

Solo
e|------10---10-12b14b14-10h12p10--------------------------------------------|
B|-10h12--12----------------------12---"15/12-12-12---15/12-12-12----------|
G|--------------------------------------14/12-12-12-x-14/12-12-12------------|
D|----------------------------------X2---------------------------------------|
A|---------------------------------------------------------------------------|
E|---------------------------------------------------------------------------|

e|---------------------------------------------------------------------------|
B|---------------------------------------------------------------------------|
G|--------17----x-------17-17bb-17p15-------15h17p15---15h17p15--------------|
D|--15h17-------x-15h17------------17p15-------------15----------15-15h17p15-|
A|-------------------------X2------------------------------------------------|
E|---------------------------------------------------------------------------|
Related for Northern Swagger - Swagger tab