Song name
# A B C D E F G H I J K L M N O P Q R S T U V W X Y Z

Misc Unsigned Bands - The Chaos Theory - No War tab

Help us improve GuitareTab! Take a short survey!
Song:No War
Band:TCT
Writer:Drewcifer

Drums start then:
Intro/riff:x2
Lead Guitar
E|------------------------------------------------------------------------|
B|------------------------------------------------------------------------|
G|5-5-5-5-5-5-10/9-------------9/7-------------7/5-------------5/7--------|
D|x-x-x-x-x-x-x-/x-7-7-7-7-7-7-x/x-3-3-3-3-3-3-x/x-5-5-5-5-5-5-x/x--------|
A|3-3-3-3-3-3-8-/7-7-7-7-7-7-7-7/5-3-3-3-3-3-3-5/3-5-5-5-5-5-5-3/5--------|
E|-----------------5-5-5-5-5-5-----1-1-1-1-1-1-----3-3-3-3-3-3------------|
Rythem:
E|------------------------------------------------------------------------|
B|------------------------------------------------------------------------|
G|5-----------------------------------------------------------------------|
D|5(x8)7----3----5--------------------------------------------------------|
A|3----7(x8)3(x8)5(x8)----------------------------------------------------|
E|-----5----1----3--------------------------------------------------------|

Verse:pm ceptfirst chord of every partx2
E|------------------------------------------------------------------------|
B|------------------------------------------------------------------------|
G|5-----------------------------------------------------------------------|
D|5(x8)7----3----5--------------------------------------------------------|
A|3----7(x8)3(x8)5(x8)----------------------------------------------------|
E|-----5----1----3--------------------------------------------------------|

Chorus:X4
E|------------------------------------------------------------------------|
B|------------------------------------------------------------------------|
G|5-5-5-------------------------------------------------------------------|
D|5-5-5-7-7-7-7-3-3-3-3-5-5-5-5-------------------------------------------|
A|3-3-3-7-7-7-7-3-3-3-3-5-5-5-5-------------------------------------------|
E|------5-5-5-5-1-1-1-1-3-3-3-3-------------------------------------------|

Lineup
Intro/Riff x2
Verse X2
Chorus X4
RiffX2
Verse X1
ChorusX2
Riff X2

Peace<3 Drewcifer awesome song!
Related for The Chaos Theory - No War tab