Song name
# A B C D E F G H I J K L M N O P Q R S T U V W X Y Z

Misc Unsigned Bands - Death In December - Lying Awake Acoustic tab

This is a new artist, first tab by them on Ultimate-guitar.com
|--------------------------------------------------------------------|
|--------------------------------------------------------------------| 
|--------------------------------------------------------------------|
|--------------------------------------------------------------------|
|-----3-----3-----3-----3-----3-----3--------------------------------|
|-5-5---7-7---8-8---1-1---3-3---3-3----------------------------------|

|--------------------------------------------------------------------|
|--------------------------------------------------------------------|
|--------------------------------------------------------------------|
|-7-7-7-7--9-10--3-3-3-3--5-5----------------------------------------|
|-7-7-7-7--9-10--3-3-3-3--5-5----------------------------------------|
|-5-5-5-5--7-8---1-1-1-1--3-3----------------------------------------|

|--------------------------------------------------------------------|
|--------------------------------------------------------------------|
|--------------------------------------------------------------------|
|-12-12-\---15-15----------------------------------------------------|
|-12-12--\--15-15----------------------------------------------------|
|-10-10---\-13-13----------------------------------------------------|

Thats all i got so far, any more help would be appreciated. I will figure out the rest
one day when I have more time if no one else does.
Tap to rate this tab
# A B C D E F G H I J K L M N O P Q R S T U V W X Y Z