Song name
# A B C D E F G H I J K L M N O P Q R S T U V W X Y Z

Misc Unsigned Bands - Nazarine - Aint Nothin But Classical tab

This song was written by one of the guitarist for Nazarine YA! This band kicks ass and
they are new so try this riff out! its classical

Guitar II
E------0----------0------------0-----------0------|
B----1--1-1-----1---1--1----1----1-1-----0---0-0h-|
G--------0-----------0-----0------0----0---0--0---| Repeat 2x
D--2---2------3---3------------0-----0------------|      
A-0----------0-----------3------------------------|
E-------------------------------------------------|
Guitar II
E----0-------0-------0---------0-------0-------0-----|
B---3-3-3---1-1-1---0-0-0h----3-3-3---1-1-1---0-0-0h-|
G--0---0---0---0---0---0-----0---0---0---0---0---0---|
D-4-------2-------0---------4-------2-------0--------|
A----------------------------------------------------|
E----------------------------------------------------|
Guitar III
E-------0----------0---------0-------0-----|
B----1---1-1----1---1-1---0---1-1-------0h-|
G-----0---0------0---0---0-0---0---0---0---|
D--2----2-----3----3---------0----0--------|
A-0----------0----------3------------------|
E------------------------------------------|

Guitar II
E----0-------0-------0---------0-------0-------0-----|
B---3-3-3---1-1-1---0-0-0h----3-3-3---1-1-1---0-0-0h-|
G--0---0---0---0---0---0-----0---0---0---0---0---0---|
D-4-------2-------0---------4-------2-------0--------|
A----------------------------------------------------|
E----------------------------------------------------|

After this the solo starts I havent figured out the solo yet so ill update as soon as I do.
Tap to rate this tab
# A B C D E F G H I J K L M N O P Q R S T U V W X Y Z