Guitaretab - guitar tabs
Song name
# A B C D E F G H I J K L M N O P Q R S T U V W X Y Z

Misc Unsigned Bands - Backlip - Rich Girls tab

the start of this song is with a lil' noise. I guess this is your choice,
but i use my neck pickup, but like i said, that's your choice.
A lil background info on the band, it consists of renee-renee and Danny
Way, the mad skater. Visit www.dannyway.com to get some more info.

Backlip - Rich Girls

Standard tuning

verse

|-12h13p12-------------------------------|
|---------1313131212-------------8-10-8--|
|-------------------10-----7-9-----------|
|---------------------7-9----------------|
|----------------------------------------|
|----------------------------------------|


chorus

|-----------------------|
|-----------------------|
|-----------------------|
|-7---6---5---3---------|
|-7---6---5---3---------|
|-5---8---3---1---------|

I didn't put it in rythm, but I guess that's not really important,
you can just hear it, so...

solo
[ Tab from: http://www.guitaretab.com/m/misc-unsigned-bands/61039.html ]
|-5-5-5-5-5-5-5-5-8-8-8-8-8-8-8-8-8-10-10-10-10-10-10-10-10-12-12-12-12-12-12-12-12--|
|------------------------------------------------------------------------------------|
|------------------------------------------------------------------------------------|
|------------------------------------------------------------------------------------|
|------------------------------------------------------------------------------------|
|------------------------------------------------------------------------------------|


|-15-15-15-15-15-15-15-15-17-17-17-17-17-17-17-17-19-19-19-19-19-19-19-19-21---21----|
|------------------------------------------------------------------------------------|
|------------------------------------------------------------------------------------|
|------------------------------------------------------------------------------------|
|------------------------------------------------------------------------------------|
|------------------------------------------------------------------------------------|

then there are these little licks during the last chorus, some of them are
just parts of the solo and there's also this part:

|-12-10-------------------|
|-------12-10-------------|
|-------------12-9--------|
|------------------12-9---|
|-------------------------|
|-------------------------|

OR:

|-12-12-12-12-15-15-15-15-10-10-10-10-8-8-8-8-|
|---------------------------------------------|
|---------------------------------------------|
|---------------------------------------------|
|---------------------------------------------|
|---------------------------------------------|

If you discover some foolish mistakes or you just feel like e-mailing me
or you think this tab sucks (means if you have any comment - i prefer
positive comment :p) tim.verheyden@gmail.com


tabbed by Tim Verheyden
Related for Backlip - Rich Girls tab
Advertisement will be closed in 10 seconds