Song name
# A B C D E F G H I J K L M N O P Q R S T U V W X Y Z

Misc Unsigned Bands - Backstabbing Punx - Flame tab

this is my own band so i am not sure if this is going to work..
one of many songs that we have.....

intro.
E-55555555-------------|
B-55555555-------------|
G-00000000----------7--|
D------------5----7----|
A-----------5---5------|
E----------3-----------| x4


in a way everything doesn't feel the same
E-------------------------------------------------|
B-------------------------------------------------|
G----------77777-55-44----------------------------|
D-55555555-77777-55-44-7-555555-------------------|
A-55555555-55555-33-22-7-555555-------------------|
E-33333333-55555-------5-333333-------------------| x2


in what was once ashes there is a spark of flame
E---------------------------------------------------|
B---------------------------------------------------|
G-55555555----------7777777777----55555555----------|
D-55555555-55555555-7777777777-55-55555555-55555555-|
A-33333333-55555555-5555555555-55-33333333-55555555-|
E----------33333333------------33----------33333333-| x2
Tap to rate this tab
# A B C D E F G H I J K L M N O P Q R S T U V W X Y Z