Song name
# A B C D E F G H I J K L M N O P Q R S T U V W X Y Z

Misc Unsigned Bands - Fornost - Birkenwald tab

fornost
birkenwald
der wind hat mir ein lied erzählt...
----------------------------------------------------------------------------
tabber: Wobbler
standart tuning acoustic
----------------------------------------------------------------------------

intro/bridge
e|-------------------------------------------------------------------------|
B|-------------------------------------------------------------------------|
G|-------------------------------------------------------------------------|
D|----4-5--4----4-5--4-0--------4-0-----4-5--4----4-5--4-0--------4-0------|
A|-------------------------------------------------------------------------|
E|-0~~~------0~~~--------3~-3-5------0~~~------0~~~--------3~-3-5-----0~~~-|

verse
e|-------------------------------------------------------------------|
B|-------------------------------------------------------------------|
G|---4----------------4----------------------------------------------|
D|-2---2-4-5-0-4----2---2-4-5-0-------4-2-4-5-4-0-4----4-2-4-5-4-0---|
A|------------------------------0--2~~~-------------2~~~-----------2-|
E|---------------0~~~------------------------------------------------|
Tap to rate this tab
 
# A B C D E F G H I J K L M N O P Q R S T U V W X Y Z